Sponge Cola - Nocturne (var.2) Guitar tab download free or play online

Guitar tab for Nocturne (var.2) by Sponge Cola free download and read or play online: file .txt, 18.53 kb has 20 views and 0 downloads.

Download guitar tab "Nocturne (var.2)" (Sponge Cola)

Sponge Cola Band name
Nocturne Song name
Guitar tabs Tab type
18.53 kb File size
.TXT File type
20 views
0 downloads
 
Are you robot?

Nocturne (var.2) guitar tab read and play online

                    Title       : Nocturne
Artist      : Sponge cola

Ear tabber  : ROGEM S. BATTUNG
Address     : Palawan St. Sampaloc Manila
E-mail add 1: webmaster at tabs-database.com.com
Contact no  : 09187229082

School      : EARIST B.S. APPLIED PHYSICS-1
Time Elapsed: 
Date        : Dec 17 2006

this is MOVIE part of their new Album named Transit if you want the complete 
tabs of the Album just type in the "song name" inputbar "Transit"

"""makikita nyo naman name ko dun ehh qng sino gumawa"""

|==========================================================================|
|==========================================================================|
|==========================================================================|

ROGEM -> sa mga chord user na Gusto matuto na gumamit ng tab my instruction
         send kyo ng message sa Friendster " webmaster at tabs-database.com.com or 
         Email nyo ako webmaster at tabs-database.com.com sabihin nyo kung kailangan 
         nyo ng Instruction sa pagbasa ng Tab forward ko sa inyo T.y.

ROGEM -> Gumawa ako ng dalwang tunning n2 ung naka E-Stadard & naka Eb   
         gumawa ako nun para sa hindi pa marunong mag tono ng Eb-tunning..
         pero mas reccomend ko pa din Eb kc dun talaga nila ginawa ung song
         
ROGEM -> This Song's Goes for " RACHELLE SUYU " BSIP Student

ROGEM -> any suggestion and Comment txt 09187229082 send kyo ng Msj sa 
         Friendster webmaster at tabs-database.com.com



|==================================================|
|==================================================|
|						   |
|                    NOCTURNE-E                    |
|						   |
|==================================================|
|==================================================|

ROGEM - > sa pagka2rinig ko parang medyo may trick din ung pag
          Strum nila d2 may narinig ako na first strum sa isang
	  chord na di nya pinatamaan ung eb na string tapos 2nd
          strike sa chord na un sinama nya na ung e. pero di ko
          na pi-nost un kc baka malito kyo hehehe..

ROGEM - >(*Tip*)lang ha baka makatulong strum nyo ung mga chord using
         ur fingers only wag kyo mag pick try nyo lang baka maka2long

Transcribed by: ROGEM S. BATTUNG
School        : EARIST B.S. APPLIED PHYSICS 
Time Elapsed  : 6:00-6:46am
Date          : Dec 17 2006
Contact no    : 09187229082

C#	: X46664
C#M9	: X46544
C#M9	: X46444
C#7	: X46464
F#	: 244322 or XX4322
F#m	: 244222 or XX4222
Fm	: 133111
G#m	: 466444

VERSE
    C#            C#M7          C#7	      F#
e|-x-x-x-x-x-x---x-x-x-x-x-x---x-x-x-x-x-x---2-2-2-2-2-2-|
B|-6-6-6-6-6-6---6-6-6-6-6-6---6-6-6-6-6-6---2-2-2-2-2-2-|
G|-6-6-6-6-6-6---5-5-5-5-5-5---4-4-4-4-4-4---3-3-3-3-3-3-|
D|-6-6-6-6-6-6---6-6-6-6-6-6---6-6-6-6-6-6---4-4-4-4-4-4-|
A|-4-4-4-4-4-4---4-4-4-4-4-4---4-4-4-4-4-4---4-4-4-4-4-4-|
E|-x-x-x-x-x-x-------------------------------2-2-2-2-2-2-|
C#                C#M7
Laid my head on the pillow
                       C#7
Watched the night go by
                        F#
Watched the checkered pillowcases come alive


    C#            C#M7          C#7	      F#
e|-x-x-x-x-x-x---x-x-x-x-x-x---x-x-x-x-x-x---2-2-2-2-2-2-|
B|-6-6-6-6-6-6---6-6-6-6-6-6---6-6-6-6-6-6---2-2-2-2-2-2-|
G|-6-6-6-6-6-6---5-5-5-5-5-5---4-4-4-4-4-4---3-3-3-3-3-3-|
D|-6-6-6-6-6-6---6-6-6-6-6-6---6-6-6-6-6-6---4-4-4-4-4-4-|
A|-4-4-4-4-4-4---4-4-4-4-4-4---4-4-4-4-4-4---4-4-4-4-4-4-|
E|-x-x-x-x-x-x-------------------------------2-2-2-2-2-2-|
C#                  C#M7
Silence croons me slowly
                     C#7
And I wonder how you are
                    F#
Are you sleeping soundly


    		F#m
e|-----------2-2-2-2-2-2---------------------------------|
B|-----------2-2-2-2-2-2---------------------------------|
G|-----------2-2-2-2-2-2---------------------------------|
D|-----------4-4-4-4-4-4---------------------------------|
A|-----------4-4-4-4-4-4---------------------------------|
E|-----------2-2-2-2-2-2---------------------------------|
                        F#m
You don't quite feel as far

CHORUS
    C#           C#M7  C#7	F#            F#m
e|-x-x-x-x-x-x---x-x-x-x-x-x---2-2-2-2-2-2---2-2-2-2-2-2|
B|-6-6-6-6-6-6---6-6-6-6-6-6---2-2-2-2-2-2---2-2-2-2-2-2|
G|-6-6-6-6-6-6---5-5-4-4-4-4---3-3-3-3-3-3---2-2-2-2-2-2|
D|-6-6-6-6-6-6---6-6-6-6-6-6---4-4-4-4-4-4---4-4-4-4-4-4|
A|-4-4-4-4-4-4---4-4-4-4-4-4---4-4-4-4-4-4---4-4-4-4-4-4|
E|-----------------------------2-2-2-2-2-2---2-2-2-2-2-2|
C#
Saw your name written on the ceiling
C#M7         C#7           F#		    F#m
Not sure if I'm still dreaming of you I've seen you
   	C#
e|-----x----------------------------------|
B|-----6----------------------------------|
G|-----6----------------------------------|
D|-----6----------------------------------|
A|-----4----------------------------------|
E|-----x----------------------------------|
        D
in my sleep


VERSE II

    C#            C#M7          C#7	      F#
e|-x-x-x-x-x-x---x-x-x-x-x-x---x-x-x-x-x-x---2-2-2-2-2-2-|
B|-6-6-6-6-6-6---6-6-6-6-6-6---6-6-6-6-6-6---2-2-2-2-2-2-|
G|-6-6-6-6-6-6---5-5-5-5-5-5---4-4-4-4-4-4---3-3-3-3-3-3-|
D|-6-6-6-6-6-6---6-6-6-6-6-6---6-6-6-6-6-6---4-4-4-4-4-4-|
A|-4-4-4-4-4-4---4-4-4-4-4-4---4-4-4-4-4-4---4-4-4-4-4-4-|
E|-x-x-x-x-x-x-------------------------------2-2-2-2-2-2-|
From across the room the clock leers
As I try to sleep again
I would rather shorten the night
Than lengthen the day

    C#            C#M7          C#7	      F#
e|-x-x-x-x-x-x---x-x-x-x-x-x---x-x-x-x-x-x---2-2-2-2-2-2-|
B|-6-6-6-6-6-6---6-6-6-6-6-6---6-6-6-6-6-6---2-2-2-2-2-2-|
G|-6-6-6-6-6-6---5-5-5-5-5-5---4-4-4-4-4-4---3-3-3-3-3-3-|
D|-6-6-6-6-6-6---6-6-6-6-6-6---6-6-6-6-6-6---4-4-4-4-4-4-|
A|-4-4-4-4-4-4---4-4-4-4-4-4---4-4-4-4-4-4---4-4-4-4-4-4-|
E|-x-x-x-x-x-x-------------------------------2-2-2-2-2-2-|
    C#   C#M7            C#7      F#
In sleep we lose half our self

GTR I
    		F#m
e|-----------2-2-2-2-2-2---------------------------------|
B|-----------2-2-2-2-2-2---------------------------------|
G|-----------2-2-2-2-2-2---------------------------------|
D|-----------4-4-4-4-4-4---------------------------------|
A|-----------4-4-4-4-4-4---------------------------------|
E|-----------2-2-2-2-2-2---------------------------------|
GTR II
		F#m
e|-----------16--14--13--14--16--------------------------|
B|-------------------------------------------------------|
G|-------------------------------------------------------|
F#m
I would rather spend it dreaming of you

CHORUS
    C#           C#M7  C#7	F#            F#m
e|-x-x-x-x-x-x---x-x-x-x-x-x---2-2-2-2-2-2---2-2-2-2-2-2|
B|-6-6-6-6-6-6---6-6-6-6-6-6---2-2-2-2-2-2---2-2-2-2-2-2|
G|-6-6-6-6-6-6---5-5-4-4-4-4---3-3-3-3-3-3---2-2-2-2-2-2|
D|-6-6-6-6-6-6---6-6-6-6-6-6---4-4-4-4-4-4---4-4-4-4-4-4|
A|-4-4-4-4-4-4---4-4-4-4-4-4---4-4-4-4-4-4---4-4-4-4-4-4|
E|-----------------------------2-2-2-2-2-2---2-2-2-2-2-2|
C#
Saw your name written on the ceiling
C#M7       C#7              F#
Not sure if I'm still dreaming of you
      F#m
I've seen you in my sleep

REPEAT 2x di kasali last line

     F#m              Fm
Ive seen you in my sleep


INTERLUDE

ROGEM - > para d2 naman sa outro pakingan nyo lang sa audio para
	  sa ryt timing ng lead solo nya pati ung timing ng GTR I
GTR I
    Fm G#m Fm C#m-F#

GTR II SOlo

e|------4---6---4---7p4-----------4---6---4---7p4-----------|
B|--4-----4---4---4-----4-----4-----4---4---4-----4---------|
G|4---4---------------------4---4---------------------------|
D|----------------------------------------------------------|
A|----------------------------------------------------------|
E|----------------------------------------------------------|

e|------4---5---3---6p3-----------3----5---3----6p3---------|
B|--3-----3---3---3-----3-----3------3---3---3------3-------|
G|4---4---------------------4---4---------------------------|
D|----------------------------------------------------------|
A|----------------------------------------------------------|
E|----------------------------------------------------------|

e|------4---6--7-----9-----------4---6---7----9---7---6-4---|
B|--4-----4------4-----------4-4---4---4---4----4---4-------|
G|4---4------4-------------4--------------------------------|
D|----------------------------------------------------------|
A|----------------------------------------------------------|
E|----------------------------------------------------------|


CHORUS
    C#           C#M7  C#7	F#            F#m
e|-x-x-x-x-x-x---x-x-x-x-x-x---2-2-2-2-2-2---2-2-2-2-2-2|
B|-6-6-6-6-6-6---6-6-6-6-6-6---2-2-2-2-2-2---2-2-2-2-2-2|
G|-6-6-6-6-6-6---5-5-4-4-4-4---3-3-3-3-3-3---2-2-2-2-2-2|
D|-6-6-6-6-6-6---6-6-6-6-6-6---4-4-4-4-4-4---4-4-4-4-4-4|
A|-4-4-4-4-4-4---4-4-4-4-4-4---4-4-4-4-4-4---4-4-4-4-4-4|
E|-----------------------------2-2-2-2-2-2---2-2-2-2-2-2|
C#
Saw your name written on the ceiling
C#M7       C#7              F#
Not sure if I'm still dreaming of you
      F#m
I've seen you in my sleep

CHORUS
    C#           C#M7  C#7	F#            F#m
e|-x-x-x-x-x-x---x-x-x-x-x-x---2-2-2-2-2-2---2-2-2-2-2-2|
B|-6-6-6-6-6-6---6-6-6-6-6-6---2-2-2-2-2-2---2-2-2-2-2-2|
G|-6-6-6-6-6-6---5-5-4-4-4-4---3-3-3-3-3-3---2-2-2-2-2-2|
D|-6-6-6-6-6-6---6-6-6-6-6-6---4-4-4-4-4-4---4-4-4-4-4-4|
A|-4-4-4-4-4-4---4-4-4-4-4-4---4-4-4-4-4-4---4-4-4-4-4-4|
E|-----------------------------2-2-2-2-2-2---2-2-2-2-2-2|
C#
Saw your name written on the ceiling
C#M7       C#7              F#
Not sure if I'm still dreaming of you


      F#m
I've seen you in my sleep ( repeat 4x ) then last chord "C#"

ROGEM -> I dedicate this song to "Ms.RACHELLE SUYU " BSIP Student

ROGEM -> any suggestion and Comment txt 09187229082 send kyo ng Msj sa 
         Friendster webmaster at tabs-database.com.com

|==========================================================================|
|==========================================================================|
|==========================================================================|

this is MOVIE part of their new Album named Transit if you want the complete 
tabs of the Album just type in the "song name" inputbar "Transit"

"""makikita nyo naman name ko dun ehh qng sino gumawa"""


|==================================================|
|==================================================|
|						   |
|                    NOCTURNE                      |
|						   |
|==================================================|
|==================================================|



ROGEM - > sa pagka2rinig ko parang medyo may trick din ung pag
          Strum nila d2 may narinig ako na first strum sa isang
	  chord na di nya pinatamaan ung eb na string tapos 2nd
          strike sa chord na un sinama nya na ung eb. pero di ko
          na pi-nost un kc baka malito kyo hehehe..

ROGEM - >(*Tip*)lang ha baka makatulong strum nyo ung mga chord using
         ur fingers only wag kyo mag pick try noy lang baka maka2long

Transcribed by: ROGEM S. BATTUNG
School        : EARIST B.S. APPLIED PHYSICS 
Time Elapsed  : 6:00-6:46am
Date          : Dec 17 2006
Contact no    : 09187229082

   CHORD D
eb|-x------------|
Bb|-3--------7---|
Gb|-2---or---7---|
Db|-4--------7---|
Ab|-5--------9---|
Eb|-x-------10---|

VERSE
    D             DM7           D7	      G
eb|-x-2-2-2-2-2---x-x-x-x-x-x---2-2-2-2-2-2---3-3-3-3-3-3-|
Bb|-3-3-3-3-3-3---7-7-7-7-7-7---1-1-1-1-1-1---3-3-3-3-3-3-|
Gb|-2-2-2-2-2-2---6-6-6-6-6-6---2-2-2-2-2-2---4-4-4-4-4-4-|
Db|-4-4-4-4-4-4---7-7-7-7-7-7---0-0-0-0-0-0---5-5-5-5-5-5-|
Ab|-5-5-5-5-5-5---5-5-5-5-5-5-----------------5-5-5-5-5-5-|
Eb|-x-----------------------------------------3-3-3-3-3-3-|
D                    DM7
Laid my head on the pillow
                       D7
Watched the night go by
                        G
Watched the checkered pillowcases come alive

    D             DM7           D7	      G
eb|-x-2-2-2-2-2---x-x-x-x-x-x---2-2-2-2-2-2---3-3-3-3-3-3-|
Bb|-3-3-3-3-3-3---7-7-7-7-7-7---1-1-1-1-1-1---3-3-3-3-3-3-|
Gb|-2-2-2-2-2-2---6-6-6-6-6-6---2-2-2-2-2-2---4-4-4-4-4-4-|
Db|-4-4-4-4-4-4---7-7-7-7-7-7---0-0-0-0-0-0---5-5-5-5-5-5-|
Ab|-5-5-5-5-5-5---5-5-5-5-5-5-----------------5-5-5-5-5-5-|
Eb|-x-----------------------------------------3-3-3-3-3-3-|
D                  DM7
Silence croons me slowly
                     D7
And I wonder how you are
                    G
Are you sleeping soundly
    		Gm
eb|-----------3-3-3-3-3-3---------------------------------|
Bb|-----------3-3-3-3-3-3---------------------------------|
Gb|-----------3-3-3-3-3-3---------------------------------|
Db|-----------5-5-5-5-5-5---------------------------------|
Ab|-----------5-5-5-5-5-5---------------------------------|
Eb|-----------3-3-3-3-3-3---------------------------------|
                        Gm
You don't quite feel as far

ROGEM - > d2 sa chorus pakingan nyo ung formation ng strumming ha

CHORUS
    D             D7	        G             Gm
eb|-2-2-2-2-2-2---2-2-x-x-x-x---3-3-3-3-3-3---3-3-3-3-3-3|
Bb|-3-3-3-3-3-3---1-1-7-7-7-7---3-3-3-3-3-3---3-3-3-3-3-3|
Gb|-2-2-2-2-2-2---2-2-5-5-5-5---4-4-4-4-4-4---3-3-3-3-3-3|
Db|---------------0-0-7-7-7-7---5-5-5-5-5-5---5-5-5-5-5-5|
Ab|-------------------5-5-5-5---5-5-5-5-5-5---5-5-5-5-5-5|
Eb|-x---------------------------3-3-3-3-3-3---3-3-3-3-3-3|
D
Saw your name written on the ceiling
D7                     G		    Gm
Not sure if I'm still dreaming of you I've seen you
   	D
eb|-----2----------------------------------|
Bb|-----3----------------------------------|
Gb|-----2----------------------------------|
Db|----------------------------------------|
Ab|----------------------------------------|
Eb|----------------------------=-----------|
        D
in my sleep


VERSE II

    D             DM7           D7	      G
eb|-x-2-2-2-2-2---x-x-x-x-x-x---2-2-2-2-2-2---3-3-3-3-3-3-|
Bb|-3-3-3-3-3-3---7-7-7-7-7-7---1-1-1-1-1-1---3-3-3-3-3-3-|
Gb|-2-2-2-2-2-2---6-6-6-6-6-6---2-2-2-2-2-2---4-4-4-4-4-4-|
Db|-4-4-4-4-4-4---7-7-7-7-7-7---0-0-0-0-0-0---5-5-5-5-5-5-|
Ab|-5-5-5-5-5-5---5-5-5-5-5-5-----------------5-5-5-5-5-5-|
Eb|-x-----------------------------------------3-3-3-3-3-3-|
From across the room the clock leers
As I try to sleep again
I would rather shorten the night
Than lengthen the day

    D             DM7           D7	      G
eb|-x-2-2-2-2-2---x-x-x-x-x-x---2-2-2-2-2-2---3-3-3-3-3-3-|
Bb|-3-3-3-3-3-3---7-7-7-7-7-7---1-1-1-1-1-1---3-3-3-3-3-3-|
Gb|-2-2-2-2-2-2---6-6-6-6-6-6---2-2-2-2-2-2---4-4-4-4-4-4-|
Db|-4-4-4-4-4-4---7-7-7-7-7-7---0-0-0-0-0-0---5-5-5-5-5-5-|
Ab|-5-5-5-5-5-5---5-5-5-5-5-5-----------------5-5-5-5-5-5-|
Eb|-x-----------------------------------------3-3-3-3-3-3-|
    D   DM7            D7      G
In sleep we lose half our self

GTR I
    		Gm
eb|-----------3-3-3-3-3-3---------------------------------|
Bb|-----------3-3-3-3-3-3---------------------------------|
Gb|-----------3-3-3-3-3-3---------------------------------|
Db|-----------5-5-5-5-5-5---------------------------------|
Ab|-----------5-5-5-5-5-5---------------------------------|
Eb|-----------3-3-3-3-3-3---------------------------------|
GTR II
		Gm
eb|-----------17--15--14--15--17--------------------------|
Bb|-------------------------------------------------------|
Gb|-------------------------------------------------------|
Gm
I would rather spend it dreaming of you

CHORUS
    D             D7	        G             Gm
eb|-2-2-2-2-2-2---2-2-x-x-x-x---3-3-3-3-3-3---3-3-3-3-3-3|
Bb|-3-3-3-3-3-3---1-1-7-7-7-7---3-3-3-3-3-3---3-3-3-3-3-3|
Gb|-2-2-2-2-2-2---2-2-5-5-5-5---4-4-4-4-4-4---3-3-3-3-3-3|
Db|---------------0-0-7-7-7-7---5-5-5-5-5-5---5-5-5-5-5-5|
Ab|-------------------5-5-5-5---5-5-5-5-5-5---5-5-5-5-5-5|
Eb|-x---------------------------3-3-3-3-3-3---3-3-3-3-3-3|
D
Saw your name written on the ceiling
D7                     G
Not sure if I'm still dreaming of you
      Gm
I've seen you in my sleep

REPEAT 2x di kasali last line

     Gm              F#m
Ive seen you in my sleep


INTERLUDE

ROGEM - > para d2 naman sa outro pakingan nyo lang sa audio para
	  sa ryt timing ng lead solo nya pati ung timing ng GTR I
GTR I
    F#m Am F#m Dm-G

GTR II SOlo

eb|------5---7---5---8p5-----------5---7---5---8p5-----------|
Bb|--5-----5---5---5-----5-----5-----5---5---5-----5---------|
Gb|5---5---------------------5---5---------------------------|
Db|----------------------------------------------------------|
Ab|----------------------------------------------------------|
Eb|----------------------------------------------------------|

eb|------4---6---4---7p4-----------4----6---4----7p4---------|
Bb|--4-----4---4---4-----4-----4------4---4---4------4-------|
Gb|5---5---------------------5---5---------------------------|
Db|----------------------------------------------------------|
Ab|----------------------------------------------------------|
Eb|----------------------------------------------------------|

eb|------5---7--8----10-----------5---7---8---10---8---7-5---|
Bb|--5-----5------5-----------5-5---5---5---5----5---5-------|
Gb|5---5------5-------------5--------------------------------|
Db|----------------------------------------------------------|
Ab|----------------------------------------------------------|
Eb|----------------------------------------------------------|


CHORUS
    D             D7	        G             Gm
eb|-2-2-2-2-2-2---2-2-x-x-x-x---3-3-3-3-3-3---3-3-3-3-3-3|
Bb|-3-3-3-3-3-3---1-1-7-7-7-7---3-3-3-3-3-3---3-3-3-3-3-3|
Gb|-2-2-2-2-2-2---2-2-5-5-5-5---4-4-4-4-4-4---3-3-3-3-3-3|
Db|---------------0-0-7-7-7-7---5-5-5-5-5-5---5-5-5-5-5-5|
Ab|-------------------5-5-5-5---5-5-5-5-5-5---5-5-5-5-5-5|
Eb|-x---------------------------3-3-3-3-3-3---3-3-3-3-3-3|
D
Saw your name written on the ceiling
D7                     G
Not sure if I'm still dreaming of you
      Gm
I've seen you in my sleep

    D             D7	        G             Gm
eb|-2-2-2-2-2-2---2-2-x-x-x-x---3-3-3-3-3-3---3-3-3-3-3-3|
Bb|-3-3-3-3-3-3---1-1-7-7-7-7---3-3-3-3-3-3---3-3-3-3-3-3|
Gb|-2-2-2-2-2-2---2-2-5-5-5-5---4-4-4-4-4-4---3-3-3-3-3-3|
Db|---------------0-0-7-7-7-7---5-5-5-5-5-5---5-5-5-5-5-5|
Ab|-------------------5-5-5-5---5-5-5-5-5-5---5-5-5-5-5-5|
Eb|-x---------------------------3-3-3-3-3-3---3-3-3-3-3-3|
D
Saw your name written on the ceiling
D7                     G
Not sure if I'm still dreaming of you

      Gm
I've seen you in my sleep ( repeat 4x ) then last chord "D"

ROGEM -> I dedicate this song to "Ms.RACHELLE SUYU " BSIP Student

ROGEM -> any suggestion and Comment txt 09187229082 send kyo ng Msj sa 
         Friendster webmaster at tabs-database.com.com

|==========================================================================|
|==========================================================================|
|==========================================================================|

this is MOVIE part of their new Album named Transit if you want the complete 
tabs of the Album just type in the "song name" inputbar "Transit"

"""makikita nyo naman name ko dun ehh qng sino gumawa"""
Added by tabs-database.com and our distinguished partners                    

Comments for guitar tab — Nocturne (var.2) (Sponge Cola)

Other Nocturne (var.2) by Sponge Cola tabs:

Last viewed Sponge Cola tabs: